|
plan du site | contact


Bienvenue sur cet espace de discussion ouvert à tous !
La passion des Beatles nous réunit,
mais tous les sujets sont possibles, vous avez la parole
et nous sommes là pour répondre à vos questions !

Se connecter pour vérifier ses messages privés Messagerie privée Rechercher Rechercher
Liste des Membres Liste des Membres Profil Profil
Connexion Connexion FAQ FAQ
S'enregistrer S'enregistrer (nouvel utilisateur)
  Lucy in the web Index du Forum > Le coin des zicos
  Sujet : Come Together
Aller à la page Précédente  1, 2
Poster un nouveau sujet   Répondre au sujet
Voir le sujet précédent :: Voir le sujet suivant  
Auteur Message
ilana



Inscrit le: 29 Aoû 2005
Messages: 5

MessagePosté le: Lun Aoû 29, 2005 11:13 pm    Sujet du message: Répondre en citant

bien "balancé "cher mauvais doigt"!!!!! Wink
Revenir en haut de page
Voir le profil de l'utilisateur Envoyer un message privé
toto



Inscrit le: 04 Nov 2005
Messages: 49

MessagePosté le: Lun Nov 07, 2005 10:51 pm    Sujet du message: Répondre en citant

--------------------------------------------
---------------------15--12-(5)----------
-----------5--5-12-----------------------
------------------------------------------
Moi je la joue comme ça.


A la guitare ça ferait plutot

------------------------------------
------------------------------------
-------------------------------------
----------------------------10----------
--------------------10--12-----------
-------------10 10 ----------------
Revenir en haut de page
Voir le profil de l'utilisateur Envoyer un message privé
Montrer les messages depuis:   
Poster un nouveau sujet   Répondre au sujet Aller à la page Précédente  1, 2
Page 2 sur 2


 
Sauter vers:  



Powered by phpBB © phpBB Group
Traduction par : phpBB-fr.com